Hoşgeldiniz. Unutmayın, çok istiyorsanız mutlaka bir yolu vardır.!

Kreş Yarım Kalan Şarap Tab ve Akor Kod: F#m C#m D A E Belki de o son gece konuşmalıydım seninle F#m C#m D A E

  1. Sponsorlu Bağlantılar


    Kreş Yarım Kalan Şarap Tab ve Akor

    Sponsorlu Bağlantılar




    Kreş Yarım Kalan Şarap Tab ve Akor

    Kod:

    F#m C#m D A E
    Belki de o son gece konuşmalıydım seninle
    F#m C#m D A E
    Şimdi düşününce aptallık etmişim
    F#m C#m
    Kalıp senin yanında uzanıp koynuna
    D A E
    Yarım kalan o şarabı içmeliydim



    F#m C#m D A E
    Belki de o son gece sevişmeliydim seninle
    F#m C#m D A E
    Şimdi düşününce kendimde değilmişim
    F#m C#m
    Kalıp senin yanında uzanıp koynuna
    D A E
    Yarım kalan o şarabı içmeliydim



    Kreş Yarım Kalan Şarap Tab
    F#m-C#m-D-A-E

    (temiz)

    e----10---10---10-9----9--9---9-10----9----9---9-10----7---7---7--------------
    b--7----7----7-------7---7---7------7----7----7------7---7---7---10-----------
    g-----------------------------------------------------------------------------
    d-----------------------------------------------------------------------------
    a-----------------------------------------------------------------------------
    e-----------------------------------------------------------------------------


    e----------------------------------------------------------------7-7-7-----------
    b--10-10-10-10-9-9-9-9-10-10-10-10-9-9-9-9-10-10-10-10-9-9-10-------7-7-5-5-7-
    g-----------------------------------------------------------------------------
    d-----------------------------------------------------------------------------
    a-----------------------------------------------------------------------------
    e-----------------------------------------------------------------------------

    (ekstra)

    e-----------------------------------------------------------------------------
    b-----------------------------------------------------------------------------
    g-----------------------------------------------------------------------------
    d--7-7-7-7-6-6-6-6-7-7-7-7-6-6-6-6-7-7-7-7-6-6-7-9-9-9------------------------
    a---------------------------------------------------------------9-9-7-7-9--------------
    e-----------------------------------------------------------------------------


    keywords : kreş akor.kreş tab.kreş yarım kalan şarap akor.kreş yarım kalan şarap tab.yarım kalan şarap akor.yarım kalan şarap tab.kreş akorlar.kreş tablar

    Kısaca Benzer Konulara da Bakmalısın

  2. Aşağıdaki Yarım Kalan Metni Tamamlayınız. Balkon Penceresinde Minik Bir Kedi Var
  3. Kuzey Yarım Kurede Karaların Oranı Neden Güney Yarım Küreden Daha Fazladır
  4. Kuzey yarım kürede nüfusun Güney Yarım küreye oranla fazla olmasının nedenleri nelerdir
  5. Yarım hekim candan, yarım imam dinden eder atasözü
  6. apartmanda kreş olurmu
  7. Paylaş Facebook Twitter Google


  8. Sponsorlu Bağlantılar

 

 

<b>Yorum Yaparak Bu Konunun Geliştirilmesine Yardımcı Olabilirsin</b> Yorum Yaparak Bu Konunun Geliştirilmesine Yardımcı Olabilirsin


:

Powered by vBulletin® Version 4.2.5
Copyright ©2000 - 2017, Jelsoft Enterprises Ltd.
akrostiş şiirmektup örnekleri