Hoşgeldiniz. Unutmayın, çok istiyorsanız mutlaka bir yolu vardır.!

Ogün Sanlısoy - Bende Özledim(tab) Giriş --------------------------------------------------------------------------- -------------------------------------------------------------------------- -9-9~~10--8-8-8-8--5-9--------------------------------------9-9-9-9------- -9-9~~10--8-8-8-8--5-9-3 kere falan böyle yapıyor sonra-----9-9-9-9------- -7-7~~-8--6-6-6-6--3-7--son kez yapıp sonuna -şunu ekliyor--7-7-7-7------- -------------------------------------------------------------------------- ve tekrar başa

  1. Sponsorlu Bağlantılar


    Ogün Sanlısoy - Bende Özledim(tab)

    Sponsorlu Bağlantılar




    Ogün Sanlısoy - Bende Özledim(tab)









    Giriş

    ---------------------------------------------------------------------------
    --------------------------------------------------------------------------
    -9-9~~10--8-8-8-8--5-9--------------------------------------9-9-9-9-------
    -9-9~~10--8-8-8-8--5-9-3 kere falan böyle yapıyor sonra-----9-9-9-9-------
    -7-7~~-8--6-6-6-6--3-7--son kez yapıp sonuna -şunu ekliyor--7-7-7-7-------
    --------------------------------------------------------------------------
    ve tekrar başa dönüyor sözlere kadar böyle ama söze girmeden
    aşağıdakini yapıyor

    ve sözler başlıyor
    ---------------------------------I---------------------I--------------------
    ---------------------------------I---------------------I--------------------
    --9-9-9-9-9-9-9-9-7-7-7-7-7-7-7-7I-9-----7-----2-----5-I-7---9---5--2-------
    --9-9-9-9-9-9-9-9-7-7-7-7-7-7-7-7I-9-----7-----2-----5-I-7---9---5--2-------
    --7-7-7-7-7-7-7-7-5-5-5-5-5-5-5-5I-7-----5-----0-----3-I-5---7---3--0-------
    ---------------------------------I---------------------I--------------------
    ne kadar çok........ sen orada ben burda birşey
    gelmez elimizden
    -----------------------------------------------------------------------------
    -----------------------------------------------------------------------------
    -----------------------------------------------------------------------------
    --5----7----3---5--------------------5-3--7-7---5-3--7-7---9-9--8-8----------
    --5----7----3---5--------------------5-3--7-7---5-3--7-7---9-9--8-8----------
    --3----5----1---3--------------------3-1--5-5---3-1--5-5---7-7--6-6----------
    sen orada ben burda ben de özledim...ben de özledim........sana koşmak isterim derman....

    Kısaca Benzer Konulara da Bakmalısın

  2. Demet Akalın Bende Özledim Şarkı Sözleri
  3. Ogün ismi ile ilgili akrostiş şiir, ogün akrostiş
  4. Ogün Sanlısoy - Saydım gitar notası, Ogün Sanlısoy - Saydım akor,tab,nota
  5. Ogün Sanlısoy - Saydım Notası
  6. Özledim Seni Slaytı - Can Yücel/Özledim Seni Şiiri ile ilgili PowerPoint Sunumu
  7. Paylaş Facebook Twitter Google


  8. Sponsorlu Bağlantılar

 

 

<b>Yorum Yaparak Bu Konunun Geliştirilmesine Yardımcı Olabilirsin</b> Yorum Yaparak Bu Konunun Geliştirilmesine Yardımcı Olabilirsin


:

Powered by vBulletin® Version 4.2.5
Copyright ©2000 - 2017, Jelsoft Enterprises Ltd.
akrostiş şiirmektup örnekleri